Unspoken Dialogue

Music & Lyrics by Patrik Siljestam (2012)


(Verse)
Searching, I'm searching, searching for someone
Will I ever find you? I don't know where to start
Searching, you're searching, searching for someone
Will you ever find me? I'm hiding in your heart

I try to be righteous, to always be so strong
The world is so distant, I don't feel I belong
Let go of your judgement, there is no right or wrong
The world is a painting, your life is like a song

(Chorus)
Is this all that is real? Is there something concealed?
I can open your eyes, if you open your heart

(Verse)
I'm searching for answers to questions I pursue
Will I ever find them? I don't think that I'm heard
You're searching for answers, they're all inside of you
Will you ever hear them? They're spoken without words

I embarked on a journey, I left my land alone
I reached the horizon, but didn't find a home
Your home is the ocean, you're sailing on a ship
Let go of the surface and dive into your depths

(Guitar solo, slowing down)

(Chorus)
I fear diving and drowning, I'm not ready to go
You can breathe under water, if you breathe with your soul

(Outro)
Dive through the streams
Dive to your dreams
There, inside your soul
You will be whole

Be free
With me
I'm free


Verse & Interlude (Picking pattern)
 Fmaj7   Cmaj7   Fmaj7   Fmaj7   Fmaj7   Cmaj7   Fmaj7   Fmaj7
|---------------|---------------|---------------|---------------|
|1----1--0----0-|1-3-1-0-1------|1----1--0----0-|1-3-1-0-1------|
|---2-------0---|---------------|---2-------0---|---------------|
|3--------------|3-------3------|3--------------|3-------3------|
|--------3------|---------------|--------3------|---------------|
|---------------|---------------|---------------|---------------|

Verse (Strumming)
 Fmaj7   Cmaj7   Fmaj7   Fmaj7   Fmaj7   Cmaj7   Fmaj7   Fmaj7
|0-0-0-0-0-0-0-0|0-0-0-0-0-0-0-0|0-0-0-0-0-0-0-0|0-0-0-0-0-0-0-0|
|1-1-1-1-0-0-0-0|1-3-1-0-1-1-1-1|1-1-1-1-0-0-0-0|1-3-1-0-1-1-1-1|
|2-2-2-2-0-0-0-0|2-2-2-2-2-2-2-2|2-2-2-2-0-0-0-0|2-2-2-2-2-2-2-2|
|3-3-3-3-2-2-2-2|3-3-3-3-3-3-3-3|3-3-3-3-2-2-2-2|3-3-3-3-3-3-3-3|
|--------3-3-3-3|---------------|--------3-3-3-3|---------------|
|---------------|---------------|---------------|---------------|


Chorus (Picking pattern)
 Am7     Am7sus4 Csus4   C       Am7     Am7sus4 Csus4   C
|---------------|1--1--1-0--0-0-|---------------|1--1--3-0------|
|1--1--1-3--3-3-|--1--1-1--1-1-1|1--1--1-3--3-3-|--1--1-1-------|
|--0--0-0--0-0-0|---------------|--0--0-0--0-0-0|---------------|
|---------------|---------------|---------------|---------------|
|0-------0------|3-------3------|0-------0------|3-------3------|
|---------------|---------------|---------------|---------------|

Chorus (Strumming)
 Am7     Am7sus4 Csus4   C       Am7     Am7sus4 Csus4   C
|0-0-0-0-0-0-0-0|1-1-1-1-0-0-0-0|0-0-0-0-0-0-0-0|1-1-1-3-0------|
|1-1-1-1-3-3-3-3|1-1-1-1-1-1-1-1|1-1-1-1-3-3-3-3|1-1-1-1-1------|
|0-0-0-0-0-0-0-0|0-0-0-0-0-0-0-0|0-0-0-0-0-0-0-0|0-0-0-0-0------|
|2-2-2-2-2-2-2-2|3-3-3-3-2-2-2-2|2-2-2-2-2-2-2-2|3-3-3-3-2------|
|0-0-0-0-0-0-0-0|3-3-3-3-3-3-3-3|0-0-0-0-0-0-0-0|3-3-3-3-3------|
|---------------|---------------|---------------|---------------|

Guitar Solo (Slowing Down)
 Em/F    Em      Dm      Dm/C    C/B     C/A     G
|0--------------|---------------|---------------|---------------|
|---0--1----1--0|3-----0-3--1--0|1-------1--0--2|---------------|
|---------------|---2-----------|------0--------|0--------------|
|3-------2------|0--------------|---3-----------|---2--0--------|
|---------------|--------3------|2-------0------|---------------|
|---------------|---------------|---------------|3--------------|

Second Chorus (Picking pattern)
 Am7     Am7sus4 Csus4   C       Am7     Am7sus4 Csus4   C
|---------------|---------------|---------------|1--1--3-0------|
|---------------|---------------|1--1--1-3--3-3-|--1--1-1-------|
|---------------|---------------|--0--0-0--0-0-0|---------------|
|--------0------|3-----3-2------|---------------|---------------|
|3--------------|---------------|0-------0------|3-------3------|
|---------------|---------------|---------------|---------------|

Second Chorus (Strumming)
 Am7     Am7sus4 Csus4   C       Am7     Am7sus4 Csus4   C
|0-0-0-0-0-0-0-0|1-1-1-1-0-0-0-0|0-0-0-0-0-0-0-0|1-1-1-3-0------|
|1-1-1-1-3-3-3-3|1-1-1-1-1-1-1-1|1-1-1-1-3-3-3-3|1-1-1-1-1------|
|0-0-0-0-0-0-0-0|0-0-0-0-0-0-0-0|0-0-0-0-0-0-0-0|0-0-0-0-0------|
|2-2-2-2-2-2-2-2|3-3-3-3-2-2-2-2|2-2-2-2-2-2-2-2|3-3-3-3-2------|
|0-0-0-0-0-0-0-0|3-3-3-3-3-3-3-3|0-0-0-0-0-0-0-0|3-3-3-3-3------|
|---------------|---------------|---------------|---------------|

Outro (Strumming)
 Asus2  Bmadd4/A Asus2  Bmadd4/A Asus2  Bmadd4/A Asus2  Bmadd4/A
|0-0-0-0-0-0-0-0|0-0-0-0-0-0-0-0|0-0-0-0-0-0-0-0|0-0-0-0-0-0-0-0|
|0-0-0-0-3-3-3-3|0-0-0-0-3-3-3-3|0-0-0-0-3-3-3-3|0-0-0-0-3-3-3-3|
|2-2-2-2-4-4-4-4|2-2-2-2-4-4-4-4|2-2-2-2-4-4-4-4|2-2-2-2-4-4-4-4|
|2-2-2-2-4-4-4-4|2-2-2-2-4-4-4-4|2-2-2-2-4-4-4-4|2-2-2-2-4-4-4-4|
|0-0-0-0-0-0-0-0|0-0-0-0-0-0-0-0|0-0-0-0-0-0-0-0|0-0-0-0-0-0-0-0|
|---------------|---------------|---------------|---------------|

Outro (Strumming)
 Fmaj7   Cmaj7   Fmaj7   Cmaj7   C
|0-0-0-0-0-0-0-0|0-0-0-0-0-0-0-0|0--------------|
|1-1-1-1-0-0-0-0|1-1-1-1-0-0-0-0|1--------------|
|2-2-2-2-0-0-0-0|2-2-2-2-0-0-0-0|0--------------|
|3-3-3-3-2-2-2-2|3-3-3-3-2-2-2-2|2--------------|
|--------3-3-3-3|--------3-3-3-3|3--------------|
|---------------|---------------|---------------|

1 comment:

Follow by Email