Light and Darkness

Music & Lyrics by Patrik Siljestam (2012)

Am                           G
You're my sweetheart and I will fight for you
Dm                           E          F              E
I will be your light and I will make you smile

I'm your sweetheart and you will fight for me
You will be my light and you will make me smile

Chorus (Strumming bar chords)
Am
Everything, my everything
G
You're my everything, my everything
Am
Everything, my everything
      E           F             E
And I will make you smile

Everything, your everything, I'm your everything, your everything
Everything, your everything, and you will make me smile

(Guitar Solo)

(Verse)
You're my sweetheart and I will fight with you
I will be your darkness and I will make you cry

I'm your sweetheart and you will fight with me
You will be my darkness and you will make me cry

(Chorus)
Everything, my everything, you're my everything, my everything
Everything, my everything and I will make you cry

Everything, your everything, I'm your everything, your everything
Everything, your everything, and you will make me cry

(Guitar Solo)

Guitar Solo
|--------8-10-12-10---8---10-|----------7-8-10-8---7---10-|
|-10-------------------------|-8--------------------------|
|----------------------------|----------------------------|
|----------------------------|----------------------------|
|----------------------------|----------------------------|
|----------------------------|----------------------------|

|----------------------------|-----------------7---8---10-|-8-|
|----------------------------|-9--------------------------|---|
|-10-------10-9-7-9---10---8-|----------------------------|---|
|----------------------------|----------------------------|---|
|----------------------------|----------------------------|---|
|----------------------------|----------------------------|---|


Verse (Picking pattern)
|-------0-3-1-|-------3-5-7-|-------1-3-1-|---0---1---0-|
|---1---------|---3---------|---3---------|---0---1---0-|
|-----2-------|-----4-------|-----2-------|---3---2---3-|
|-------------|-------------|-0-----------|---2---3---2-|
|-0-----------|-------------|-------------|---2---3---2-|
|-------------|-3-----------|-------------|-0----1----0-|




No comments:

Post a Comment

Follow by Email